PesPasionArg
"¡La Grandeza, se hizo editando!"
Con los Acordes de Lukinho aprende a Tocar Rock en 58 Trimestres! PesPasionArg
Para ver la totalidad del foro tenes que conectarte!
Sino también podes registrarte totalmente gratis!
Disfruta con tu usuario, de los mejores parches, juegos online, y mucho más!
PesPasionArg
¿Quieres reaccionar a este mensaje? Regístrate en el foro con unos pocos clics o inicia sesión para continuar.
PesPasionArg

Todo Sobre el Pro Evolution Soccer!, Más juegos, Liga Manager, noticias y demás...


No estás conectado. Conéctate o registrate

PesPasionArg » Videos, Tv, Música y Medios » Música, Programas y otros » Con los Acordes de Lukinho aprende a Tocar Rock en 58 Trimestres!

Con los Acordes de Lukinho aprende a Tocar Rock en 58 Trimestres!

Ir abajo  Mensaje [Página 1 de 1.]

Lukinho

Lukinho
Miembro de la A.E.N.O.K
Miembro de la A.E.N.O.K
hello! les dejo acordes a todos aquellos que quieran o sepan tocar la guitarra!!!
Patricio Rey y sus Redonditos de Ricota
JIJIJI
acordes
Spoiler:

Dm A7
En este film velado en blanca noche,
C#º Dm
el hijo tenaz de tu enemigo,
Dm A7
el muy verdugo cena distinguido
C#º A7
una noche de cristal que se hace añicos.

F C
No lo soñe ieeeee eh eh eh
Bb Dm
se enderezó y brindó a tu suerte.
No lo soñé ieeeee eh eh eh
y se ofreció mejor que nunca
Bb
No mires por favor
F
y no prendas la luz
Gm A
la imagen te desfiguró...

Este film da una imagen exquisita
esos chicos son como bombas pequeñitas.
El peor camino a la cueva del perico
para tipos que no duermen por la noche

No lo soñe ieeeee eh eh eh
Ibas corriendo a la deriva
No lo soñe ieeeee eh eh eh
los ojos ciegos bien abiertos.


No mires por favor,
y no prendas la luz,
la imagen te desfiguró.

El montaje final es muy curioso,
es en verdad realmente entretenido,
vas en la oscura multitud desprevenido,
tiranizando a quienes te han querido.

No lo soñe ieeeee eh eh eh
se enderezó y brindó a tu suerte.
No lo soñe ieeeee eh eh eh,
y se ofreció mejor que nunca.

No lo soñe ieeeee eh eh eh
ibas corriendo a la deriva,
no lo soñe ieeee eh eh eh,
los ojos ciegos bien abiertos.

No mires por favor,
y no prendas la luz,
la imagen te desfiguro uo uo uo!!!!

Tablatura del Solo...
1 ----------------------------------------------------------------------
2 -----5-6-8-10-10-10-8 H 10 P 6-5-----------------------5--
3 ---7-----------------------------------------7-7-7-7-7-6-6-7----
4 -7---------------------------------------------------------------------
5 ----------------------------------------------------------------------
6 ----------------------------------------------------------------------

1 ----------------------------------------------------------------------
2 -8-6-5-8-6-5-8-6-5-8-6-5-8-6-5-8-6-5--------5-6-5-----
3 --------------------------------------------------7-6-7--------7-6
4 ----------------------------------------------------------------------
5 ----------------------------------------------------------------------
6 ----------------------------------------------------------------------

1 -----------------------------------------------------------------------
2 ---------5-6-8-10-10-10-8 H 10 P 6-5----------------------5
3 -7---7-----------------------------------------7-7-7-7-7-6-6-7--
4 ---7-------------------------------------------------------------------
5 ------------------------------------------------------------------------
6 ------------------------------------------------------------------------

1 -----------------------------------------------------------------------
2 -8-6-5-8-6-5-8-6-5-8-6-5-8-6-5-8-6-5--------5-6-5-------
3 --------------------------------------------------7-6-7--------7-6-7
4 ------------------------------------------------------------------------
5 ------------------------------------------------------------------------
6 ------------------------------------------------------------------------

Yo Canibal
acordes:
Spoiler:

Intro:
Esto podés hacerlo de dos formas:

D D+ D Bb
e--2---2------10---
B--3---3------11---
G--2---3------10---
D--0---0------xx---
x6 x1 x1 x3

Si lo hacés de ésta, tratá de no tocar la primera y segunda cuerda
cuando hacés D, así suena más parecido.

Esta es la otra forma:

D D+ D Bb
D--7--8-------8---
A--5--5-------8---
E--x--x-------6---
x6 x1 x1 x3

Espero que se entienda lo que estoy tratando de escribir.

En la intro hace eso varias veces y después Am A#
Bueno, el tema sigue así:

D D+ D Bb D D+ D Bb
No se entiende un menú pero la salsa abunda.
Soy un gourmet que huele eternamente mal.
Am
Viejas compotas que no dan respiro
A#
Al caníbal que hay en mí,
Am A#
Que no es bien recibido en un banquete así.

Se amasan las fortunas, se cargan los bolsillos.
De presa seca, de oro falso, de vermouth.
Am
Me acaban el cerebro a mordiscos
A#
Bebiendo el jugo de mi corazón
Am A# C
Y me cuentan cuentos al ir a dormir. Ooh...

F C5 Bb5
Un cordero de mi estilo.
F C5 Bb5
Un caníbal de mi estilo.

Voy al coliseo a prenderme fuego.
Mi racha de novato nunca cambiará.
Por favor que el adiós no se alargue.
Me cansé de tanto esperar.
Cuando el fuego crezca quiero estar allí.

Un cordero de mi estilo.
Un caníbal de mi estilo.

Fin en D5+.
----------------------------------------------------------------

El Bb del estribillo hacélo en el primer traste así lo tocás y
rápido le bajás el bajo a A y lo volvés a Bb. ¿Se entiende?:

Bb Bb/A
G-3---3-----
D-3---3-----
A-1---0-----
E-x---x-----







La Renga
Balada del Diablo y la Muerte
Acordes
Spoiler:

Intro:[Mim Sol Re La7] x4

Mim Sol
Estaba el diablo mal parado
Re La7
en la esquina de mi barrio
Mim Sol
Ahí donde dobla el viento
Re La7
y se cruzan los atajos.

Mim Sol
Al lado de el estaba la muerte
Re La7
con una botella en la mano,
Mim Sol
me miraba de reojo
Re La7
y se reían por lo bajo.

Mim Sol
Y yo que esperaba no se a quien
Re La7
al otro lado de la calle del otoño
Mim Sol
una noche de bufanda
Re La7
que me encontró desvelado
Mim Sol
entre dientes, oí a la muerte
Re La7 Si
que decía, que decía así:
La Do
Cuantas veces se abra escapado
Sol Re
como laucha por tirante
La Do
y esta noche que no cuesta nada,
Sol Re
ni siquiera fatigarme

La Do
podemos llevarnos un cordero
Sol Re La
con solo cruzar la calle


Yo me escondí tras la niebla
y mire al infinito
a ver si llegaba ese
que nunca iba a venir.

Estaba el diablo mal parado
en la esquina de mi barrio
al lado de el estaba la muerte
con una botella en la mano.....

Solo:MIm Sol Re La7

Y temblando como una hoja
me cruce para encararlos
y le dije, me parece que esta vez
me dejaron bien plantado

Les pedí fuego y del bolsillo
saque una rama pa´convidarlos
Y bajo un árbol del otoño
nos quedamos chamullando.

Me contaron de sus vidas,
sus triunfos y sus fracasos
de que el mundo estaba loco
y hasta el cielo fue comprado:
Mim Sol
y mas miedo que ellos dos
Re La7 Si
me daba el propio ser humano

La Do
y yo ya no esperaba a nadie
Sol Re
y entre las risas del aquelarre
La Do
el diablo y la muerte
Sol Re
se me fueron amigando.

La Do
Ahí donde dobla el viento
Sol Re
y se cruzan los atajos.
La Do
Ahí donde brinda la vida
Sol Re
en la esquina de mi barrio.

Cuando estes aca
Acordes
Spoiler:

Am C Am
Cuando estés acá, tendrás tu espacio
G Am
y una frágil forma de existir
Am C Am
con verte nacer como hay quien puede ver
G Am
un mundo para destruir?
Am C Am
Ojos que no ven, corazones que no sienten
G Am
y vos que estas por venir.


G Am
A cada instante habrá una flor
G Am
y en cada flor habrá un instante
G Am
en que la vida se desnude
G F
ante esos ojos necios.


Cuando estés acá, tendrás tu tiempo
el mismo que no tiene fin
en un mundo así, donde este tu lugar
quién puede el agua pudrir?
Ojos que no ven, corazones que no sienten
y vos que estás por venir.

A cada instante...

Cuando estés acá tendrás tu espacio,
tu tiempo y algo por qué luchar
al verte crecer y hacerte fuerte
quién más le puede temer?
A esos ojos que no ven, corazones que no sienten
si vos estás acá.

A cada instante...


AlmaFuerte
una facil...Desde el Oeste
acordes
Spoiler:

Dm
Caída la noche en la ciudad,
C
con mi cuerpo en soledad,
A# C Dm
caminando por los barrios del oeste.

El insomnio de un amor,
con su futuro de ilusión,
revivió a un joven muerto civilmente.


A# C
La gente ya fue,
A Dm
duerme junto a la TV.
A# A
El digestivo incendio es su Dios.
G
Es su Dios.

Intro

Gatas y gatos buscan luz,
los perros oscuridad,
intuídos por la ansiedad de su instinto.
Elementales del montón,
intoxicados de pasión,
sienten miedo al verme lejos de su niebla.

Y la soledad,
los invita a escapar,
por la gran puerta del mundo de hoy.

Donde nadie ve,
y pocos deben perder
el hilo de su conmoción idiota.

Intro

Esquivando el temor
de la ficticia ficción,
la ciudad se ha derretido en mi cabeza.
Todo es oscuridad,
alguien se aproxima a mi,
no puedo ver si es evangelista o policia.

Busco comprender,
pero no me deja ver
por la burocracia de su historia.

Donde nadie ve,
y pocos deben perder
el hilo de su conmoción idiota hoy.

Dm C
Digestivos conformados,
A# C Dm
pecadores falsamente perdonados.

Orgullo Argentino
Tablatura...
Spoiler:

Intro RIFF 1
E*---------------------------------------------------------3----X-*
B*---------3--------------------------------3-5(2) (2)0----5-* x 2 veces pero
G*---4---2----------2----------4-------2--------(2)--0----4-* sin tocar el
D*--4---0----------2---------4-------0--------(2)----0----2-* ultimo acorde
A*2-2h4---5-4-0--0h4p2----2h4--------0--------X----2-* la 2da vez
E*--------------------------------------------------------3----0-* no toco el E5


Aca comienza, orgullo argentino quiero.....
Les pongo solo los acordes, fijense los rasgueos que son
bastante faciles!!!(paja de mi parte)
RIFF 2
E*-----------*
B*-----------* sobre esta base que se hace 2 veces
G*-4-------9-* actua la 2da viola que es lo que
D*-4-6-5-2-9-* transcribo aca abajo!!!!
A*-2-6-5-27-*
E*---4-3-0---*

RIFF 3 (esto por cada vez que se repite o sea 2 veces)
E*----------------------------------------------------------------------------*
B*----------------------------------------------------------------------------*
G*-9(11)(9)p7-9-7---7--------------7-9(11)(9)p7-9-7-----------*
D*----------------------9-7-9-9-79-9--------------------------9~~~--*
A*----------------------------------------------------------------------------*
E*----------------------------------------------------------------------------*

RIFF 4
No te enganches, con la......

E*----------------------------------------*
B*----------------------------------------* dos veces se toca
G*----------2----------------------------* este RIFF 4!!!!!
D*-45-4-2-45-4-----45-4-7-47-5-*
A*-23-2-0-23-2-----23-2-5-25-3-*
E*-23-2----23-2-----23-2-5-25-3-*

Ahora viene el RIFF 2, junto al RIFF 3, pero 1 sola vez!!!!

Despues viene de vuelta el RIFF 4, pero cambia asi!!!
No es cualquier cosa, tener......
(AH), armonico artificial
E*-------------------------------------------*
B*-------------------------------------------*
G*----------2----(4)~~~~--------------*
D*-45-4-2-45-4-----45-4-7-47-5-----*
A*-23-2-0-23-2-----23-2-5-25-3-----*
E*-23-2---23-2-----23-2-5-25-3------*

E*-----------------------------------------*
B*-----------------------------------------*
G*----------2-----------------------------*
D*-45-4-2-12-1------45-4-7-47-5-*
A*-23-2-0-23-2------23-2-5-25-3-*
E*-23-2------------------23-2-5-25-3-*

Ahora viene el RIFF 5,(estoy clavando mi talon......)
llega a ver 3 guitarras a la vez en este primer tab
represento el de la melodia, en el 2do la base,
y en el 3ro la 3er viola que entra!(estan correlativos)
1er TAB (melodia)
E*-------------------------------------------------------------------------*
B*-------------------------------------------------------------------------* se toca
G*-7h8p7-7/5-7h8p7~~~-7h8p7-710-710-8~~~~~~-* dos veces
D*-------------------------------------------------------------------------*
A*-------------------------------------------------------------------------*
E*-------------------------------------------------------------------------*

2do TAB (base)
E*------------------------------------------------------------------------------------*
B*------------------------------------------------------------------------------------* se toca
G*------------------------------------------------------------------------------------* dos veces
D*-7----7/5-7~~~~~~~~-7~~~~~~~~~~~~~~-8~~~~~~-*
A*-5----5/3-5~~~~~~~~-5~~~~~~~~~~~~~~-6~~~~~~-*
E*-5----5/3-5~~~~~~~~-5~~~~~~~~~~~~~~-6~~~~~~-*

3er TAB (viola que entra, solo la 2da vez entra)
E*-----------------------------------------------------------------------*
B*---------------------------------7h8p7-710-710 8~~~~~~-*
G*-7h8p7-7/5-7h8p11~~----------------------------------------*
D*------------------------------------------------------------------------*
A*------------------------------------------------------------------------*
E*------------------------------------------------------------------------*

Fin del RIFF 5

Despues hace esto y entra al estribillo!
E*-x----3------*
B*-6----0------*
G*-5----0----2-* RIFF 6
D*-3----0----2-*
A*-3----x----0-*
E*-x----3------*

Ahora el estribillo, Cumpliendo un sueño de ........
que es el RIFF 1, tocado 2 veces, iguales!!!

Despues viene, Premia la tele......
con el RIFF 4 que cambia en esto, ambas veces
que se lo toca!!!!

E*----------------------------------------------------------*
B*----------------------------------------------------------* 1ra vez
G*----------2------4~~~~~------------5~~~~~--*
D*-45-4-2-45-4-----45-4-7-47-5-------------------*
A*-23-2-0-23-2-----23-2-5-25-3--------------------*
E*-23-2---23-2-----23-2-5-25-3--------------------*

E*-----------------------------------------------*
B*--------------34-3--------------------------* 2da vez
G*----------2-x-x-x-pick--------------------*
D*-45-4-2-x-x-x-slide----45-4-7-47-5-*
A*-23-2-0-23-2----------23-2-5-25-3--*
E*-23-2---------------------23-2-5-25-3-*

Otra vez yo estoy clavando mi talon, etc....
Con RIFF 5, y luego el RIFF 6

Despues el estribillo de vuelta, RIFF 1

Solo (PROXIMAMENTE)

Despues del solo RIFF 1, 1 vez sin tocar el ultimo E5
Cuando empieza luego no es cualquier cosa tener...
Tambien RIFF 1 completo 4 veces.

Y para terminar el tema hace asi!

E*-3---------3--------------------------*
B*-0---------0--------------------------*
G*-0----2----0----2-----4----------4/---*
D*-0----2----0----2-----4----------4/---*
A*-X----0----X----0-----2----------2/---*
E*-3---------3--------------------------*
bueno, lo dejo ahi... ire actualizando...



Última edición por lukinho el 28/11/2011, 9:09 pm, editado 1 vez

SantiLomas

SantiLomas
Staff PPA
Staff PPA
aajajajaj, Juan Carlos Pelotudo :P


_____________________________________________________________________________________________________________________________________________



Con los Acordes de Lukinho aprende a Tocar Rock en 58 Trimestres! Scaled.php?server=801&filename=tarjetalm




Con los Acordes de Lukinho aprende a Tocar Rock en 58 Trimestres! Scaled.php?server=4&filename=firma87

Juanmgonza

Juanmgonza
Dt Liga Manager Primera A
Dt Liga Manager Primera A
Muy bueno Lucas, mi padre quiere comprarse una guitarra!

Lukinho

Lukinho
Miembro de la A.E.N.O.K
Miembro de la A.E.N.O.K
post actualizado... 2 temas de 2 bandas mas!

ramipes2010

ramipes2010
Convocado a la seleccion
Convocado a la seleccion
yo toco el bajo bananafulbo

Luks_carp

Luks_carp
Staff PPA
Staff PPA
ramipes2010 escribió:yo toco el bajo bananafulbo

suena el bajo, suena el bajo, suena el bajo pa suena el bajo ♫ (?)

ban.gif

Lukinho

Lukinho
Miembro de la A.E.N.O.K
Miembro de la A.E.N.O.K
Luks_carp escribió:
ramipes2010 escribió:yo toco el bajo bananafulbo

suena el bajo, suena el bajo, suena el bajo pa suena el bajo ♫ (?)

ban.gif
aorcado.gif

Fic93

Fic93
Administrador
Administrador
ramipes2010 escribió:yo toco el bajo bananafulbo
Pedofilo mucharisa.gif

MarioBrosArgentino

MarioBrosArgentino
Fundador
Fundador
muy bueno lukinho, algunas son fáciles son solo acordes, al menos apra mi son fáciles si son solo acordes, canciones que yo decia "esta no la saco ni con 50 años de tocar la guitarra" y son puros acordes y son fáciles jaja


_____________________________________________________________________________________________________________________________________________

Con los Acordes de Lukinho aprende a Tocar Rock en 58 Trimestres! Firmamario
Spoiler:
Con los Acordes de Lukinho aprende a Tocar Rock en 58 Trimestres! Machine-head-banner

ramipes2010

ramipes2010
Convocado a la seleccion
Convocado a la seleccion
Fic93 escribió:
ramipes2010 escribió:yo toco el bajo bananafulbo
Pedofilo mucharisa.gif
:$

Contenido patrocinado


Volver arriba  Mensaje [Página 1 de 1.]

Permisos de este foro:
No puedes responder a temas en este foro.